ISO-10303-21;
HEADER;
FILE_DESCRIPTION (( 'STEP AP214' ),
    '1' );
FILE_NAME ('100001.STEP',
    '2019-04-18T08:14:23',
    ( '' ),
    ( '' ),
    'SwSTEP 2.0',
    'SolidWorks 2016',
    '' );
FILE_SCHEMA (( 'AUTOMOTIVE_DESIGN' ));
ENDSEC;

DATA;
#1 = FILL_AREA_STYLE_COLOUR ( '', #10 ) ;
#2 = APPLICATION_CONTEXT ( 'automotive_design' ) ;
#3 = CIRCLE ( 'NONE', #174, 1.500000000000001300 ) ;
#4 = FACE_OUTER_BOUND ( 'NONE', #135, .T. ) ;
#5 = CIRCLE ( 'NONE', #165, 1.500000000000001300 ) ;
#6 = PRODUCT_DEFINITION ( 'Î´Öª', '', #156, #34 ) ;
#7 = EDGE_CURVE ( 'NONE', #179, #158, #72, .T. ) ;
#8 = ORIENTED_EDGE ( 'NONE', *, *, #57, .F. ) ;
#9 = CARTESIAN_POINT ( 'NONE',  ( 586.5225616335261500, 192.3421785149739900, 0.0000000000000000000 ) ) ;
#10 = COLOUR_RGB ( '',1.000000000000000000, 1.000000000000000000, 1.000000000000000000 ) ;
#11 = SURFACE_STYLE_USAGE ( .BOTH. , #13 ) ;
#12 = AXIS2_PLACEMENT_3D ( 'NONE', #136, #171, #173 ) ;
#13 = SURFACE_SIDE_STYLE ('',( #85 ) ) ;
#14 = FILL_AREA_STYLE ('',( #1 ) ) ;
#15 = VERTEX_POINT ( 'NONE', #35 ) ;
#16 = CARTESIAN_POINT ( 'NONE',  ( 586.6619652516819800, 193.8421785149739900, 0.0000000000000000000 ) ) ;
#17 = SURFACE_SIDE_STYLE ('',( #99 ) ) ;
#18 = SPHERICAL_SURFACE ( 'NONE', #84, 5.223636363636446200 ) ;
#19 = PRESENTATION_LAYER_ASSIGNMENT (  '', '', ( #142 ) ) ;
#20 = DIRECTION ( 'NONE',  ( -1.000000000000000000, -0.0000000000000000000, -0.0000000000000000000 ) ) ;
#21 =( GEOMETRIC_REPRESENTATION_CONTEXT ( 3 ) GLOBAL_UNCERTAINTY_ASSIGNED_CONTEXT ( ( #145 ) ) GLOBAL_UNIT_ASSIGNED_CONTEXT ( ( #71, #138, #183 ) ) REPRESENTATION_CONTEXT ( 'NONE', 'WORKASPACE' ) );
#22 = CARTESIAN_POINT ( 'NONE',  ( 583.1383288880456300, 192.3421785149738800, 0.0000000000000000000 ) ) ;
#23 = APPLICATION_CONTEXT ( 'automotive_design' ) ;
#24 = COLOUR_RGB ( '',1.000000000000000000, 1.000000000000000000, 1.000000000000000000 ) ;
#25 = DIRECTION ( 'NONE',  ( -0.0000000000000000000, 0.0000000000000000000, 1.000000000000000000 ) ) ;
#26 = CARTESIAN_POINT ( 'NONE',  ( 588.1419652516821100, 190.8421785149739100, -1.836970198720988300E-016 ) ) ;
#27 = VECTOR ( 'NONE', #64, 1000.000000000000000 ) ;
#28 = PRESENTATION_LAYER_ASSIGNMENT (  '', '', ( #44 ) ) ;
#29 = FACE_OUTER_BOUND ( 'NONE', #162, .T. ) ;
#30 = EDGE_CURVE ( 'NONE', #158, #32, #5, .T. ) ;
#31 = EDGE_CURVE ( 'NONE', #179, #182, #77, .T. ) ;
#32 = VERTEX_POINT ( 'NONE', #154 ) ;
#33 = ORIENTED_EDGE ( 'NONE', *, *, #151, .T. ) ;
#34 = PRODUCT_DEFINITION_CONTEXT ( 'detailed design', #2, 'design' ) ;
#35 = CARTESIAN_POINT ( 'NONE',  ( 586.6619652516819800, 192.3421785149739900, 1.500000000000001300 ) ) ;
#36 = CIRCLE ( 'NONE', #161, 5.223636363636430200 ) ;
#37 = FILL_AREA_STYLE_COLOUR ( '', #24 ) ;
#38 = ADVANCED_FACE ( 'NONE', ( #107 ), #104, .T. ) ;
#39 = DIRECTION ( 'NONE',  ( 0.0000000000000000000, 0.0000000000000000000, 1.000000000000000000 ) ) ;
#40 = DIRECTION ( 'NONE',  ( 0.0000000000000000000, 1.000000000000000000, 0.0000000000000000000 ) ) ;
#41 = ORIENTED_EDGE ( 'NONE', *, *, #30, .T. ) ;
#42 = ORIENTED_EDGE ( 'NONE', *, *, #91, .T. ) ;
#43 = APPLICATION_PROTOCOL_DEFINITION ( 'draft international standard', 'automotive_design', 1998, #2 ) ;
#44 = STYLED_ITEM ( 'NONE', ( #61 ), #129 ) ;
#45 = AXIS2_PLACEMENT_3D ( 'NONE', #55, #160, #177 ) ;
#46 = ORIENTED_EDGE ( 'NONE', *, *, #7, .F. ) ;
#47 = AXIS2_PLACEMENT_3D ( 'NONE', #185, #102, #140 ) ;
#48 = ORIENTED_EDGE ( 'NONE', *, *, #60, .F. ) ;
#49 = DIRECTION ( 'NONE',  ( 0.0000000000000000000, 0.0000000000000000000, 1.000000000000000000 ) ) ;
#50 = FACE_OUTER_BOUND ( 'NONE', #76, .T. ) ;
#51 = DIRECTION ( 'NONE',  ( -1.000000000000000000, -0.0000000000000000000, -0.0000000000000000000 ) ) ;
#52 =( NAMED_UNIT ( * ) SI_UNIT ( $, .STERADIAN. ) SOLID_ANGLE_UNIT ( ) );
#53 =( NAMED_UNIT ( * ) PLANE_ANGLE_UNIT ( ) SI_UNIT ( $, .RADIAN. ) );
#54 = SURFACE_STYLE_USAGE ( .BOTH. , #17 ) ;
#55 = CARTESIAN_POINT ( 'NONE',  ( 0.0000000000000000000, 0.0000000000000000000, 0.0000000000000000000 ) ) ;
#56 = PRODUCT_RELATED_PRODUCT_CATEGORY ( 'part', '', ( #163 ) ) ;
#57 = EDGE_CURVE ( 'NONE', #15, #182, #178, .T. ) ;
#58 = ORIENTED_EDGE ( 'NONE', *, *, #7, .T. ) ;
#59 = ORIENTED_EDGE ( 'NONE', *, *, #131, .T. ) ;
#60 = EDGE_CURVE ( 'NONE', #32, #106, #3, .T. ) ;
#61 = PRESENTATION_STYLE_ASSIGNMENT (( #11 ) ) ;
#62 = ORIENTED_EDGE ( 'NONE', *, *, #147, .F. ) ;
#63 = DIRECTION ( 'NONE',  ( -1.000000000000000000, -0.0000000000000000000, -0.0000000000000000000 ) ) ;
#64 = DIRECTION ( 'NONE',  ( -1.000000000000000000, -0.0000000000000000000, -0.0000000000000000000 ) ) ;
#65 = DIRECTION ( 'NONE',  ( -1.000000000000000000, -0.0000000000000000000, -0.0000000000000000000 ) ) ;
#66 = DIRECTION ( 'NONE',  ( -1.000000000000000000, -0.0000000000000000000, -0.0000000000000000000 ) ) ;
#67 = CARTESIAN_POINT ( 'NONE',  ( 586.5225616335261500, 192.3421785149739900, 1.500000000000001300 ) ) ;
#68 = AXIS2_PLACEMENT_3D ( 'NONE', #22, #123, #166 ) ;
#69 =( NAMED_UNIT ( * ) PLANE_ANGLE_UNIT ( ) SI_UNIT ( $, .RADIAN. ) );
#70 =( LENGTH_UNIT ( ) NAMED_UNIT ( * ) SI_UNIT ( .MILLI., .METRE. ) );
#71 =( LENGTH_UNIT ( ) NAMED_UNIT ( * ) SI_UNIT ( .MILLI., .METRE. ) );
#72 = CIRCLE ( 'NONE', #153, 1.500000000000001300 ) ;
#73 = ADVANCED_FACE ( 'NONE', ( #4 ), #113, .T. ) ;
#74 = AXIS2_PLACEMENT_3D ( 'NONE', #9, #51, #155 ) ;
#75 = UNCERTAINTY_MEASURE_WITH_UNIT (LENGTH_MEASURE( 1.000000000000000100E-005 ), #126, 'distance_accuracy_value', 'NONE');
#76 = EDGE_LOOP ( 'NONE', ( #186, #59 ) ) ;
#77 = LINE ( 'NONE', #132, #27 ) ;
#78 = EDGE_LOOP ( 'NONE', ( #141, #33, #48, #130 ) ) ;
#79 = LINE ( 'NONE', #67, #93 ) ;
#80 = UNCERTAINTY_MEASURE_WITH_UNIT (LENGTH_MEASURE( 1.000000000000000100E-005 ), #70, 'distance_accuracy_value', 'NONE');
#81 = AXIS2_PLACEMENT_3D ( 'NONE', #149, #63, #167 ) ;
#82 = ORIENTED_EDGE ( 'NONE', *, *, #60, .T. ) ;
#83 = CARTESIAN_POINT ( 'NONE',  ( 588.1419652516821100, 192.3421785149739900, 0.0000000000000000000 ) ) ;
#84 = AXIS2_PLACEMENT_3D ( 'NONE', #100, #114, #40 ) ;
#85 = SURFACE_STYLE_FILL_AREA ( #14 ) ;
#86 = CARTESIAN_POINT ( 'NONE',  ( 586.6619652516819800, 192.3421785149739900, -1.500000000000001300 ) ) ;
#87 = CARTESIAN_POINT ( 'NONE',  ( 588.1419652516821100, 192.3421785149739900, 0.0000000000000000000 ) ) ;
#88 = PRESENTATION_STYLE_ASSIGNMENT (( #54 ) ) ;
#89 = DIRECTION ( 'NONE',  ( -1.000000000000000000, -0.0000000000000000000, -0.0000000000000000000 ) ) ;
#90 = CIRCLE ( 'NONE', #47, 1.500000000000001300 ) ;
#91 = EDGE_CURVE ( 'NONE', #122, #158, #181, .T. ) ;
#92 = ORIENTED_EDGE ( 'NONE', *, *, #147, .T. ) ;
#93 = VECTOR ( 'NONE', #168, 1000.000000000000000 ) ;
#94 = ADVANCED_FACE ( 'NONE', ( #127 ), #18, .T. ) ;
#95 = MECHANICAL_DESIGN_GEOMETRIC_PRESENTATION_REPRESENTATION (  '', ( #44 ), #148 ) ;
#96 = ADVANCED_FACE ( 'NONE', ( #50 ), #97, .F. ) ;
#97 = PLANE ( 'NONE',  #121 ) ;
#98 = CARTESIAN_POINT ( 'NONE',  ( 586.5225616335261500, 192.3421785149739900, 0.0000000000000000000 ) ) ;
#99 = SURFACE_STYLE_FILL_AREA ( #169 ) ;
#100 = CARTESIAN_POINT ( 'NONE',  ( 583.1383288880456300, 192.3421785149738800, 0.0000000000000000000 ) ) ;
#101 = ADVANCED_FACE ( 'NONE', ( #29 ), #176, .T. ) ;
#102 = DIRECTION ( 'NONE',  ( -1.000000000000000000, -0.0000000000000000000, -0.0000000000000000000 ) ) ;
#103 = CARTESIAN_POINT ( 'NONE',  ( 588.1419652516821100, 193.8421785149739700, 0.0000000000000000000 ) ) ;
#104 = CYLINDRICAL_SURFACE ( 'NONE', #74, 1.500000000000001300 ) ;
#105 = SHAPE_DEFINITION_REPRESENTATION ( #146, #164 ) ;
#106 = VERTEX_POINT ( 'NONE', #103 ) ;
#107 = FACE_OUTER_BOUND ( 'NONE', #150, .T. ) ;
#108 =( GEOMETRIC_REPRESENTATION_CONTEXT ( 3 ) GLOBAL_UNCERTAINTY_ASSIGNED_CONTEXT ( ( #75 ) ) GLOBAL_UNIT_ASSIGNED_CONTEXT ( ( #126, #53, #159 ) ) REPRESENTATION_CONTEXT ( 'NONE', 'WORKASPACE' ) );
#109 = DIRECTION ( 'NONE',  ( 0.0000000000000000000, 0.0000000000000000000, 1.000000000000000000 ) ) ;
#110 = ORIENTED_EDGE ( 'NONE', *, *, #151, .F. ) ;
#111 = CARTESIAN_POINT ( 'NONE',  ( 588.1419652516821100, 192.3421785149739900, 0.0000000000000000000 ) ) ;
#112 = DIRECTION ( 'NONE',  ( 1.000000000000000000, 0.0000000000000000000, 0.0000000000000000000 ) ) ;
#113 = SPHERICAL_SURFACE ( 'NONE', #68, 5.223636363636446200 ) ;
#114 = DIRECTION ( 'NONE',  ( -0.0000000000000000000, 0.0000000000000000000, -1.000000000000000000 ) ) ;
#115 = AXIS2_PLACEMENT_3D ( 'NONE', #87, #124, #116 ) ;
#116 = DIRECTION ( 'NONE',  ( 0.0000000000000000000, 0.0000000000000000000, 1.000000000000000000 ) ) ;
#117 = ORIENTED_EDGE ( 'NONE', *, *, #31, .F. ) ;
#118 = CARTESIAN_POINT ( 'NONE',  ( 588.3619652516820200, 192.3421785149738800, 0.0000000000000000000 ) ) ;
#119 = AXIS2_PLACEMENT_3D ( 'NONE', #98, #89, #39 ) ;
#120 = PRODUCT_CONTEXT ( 'NONE', #23, 'mechanical' ) ;
#121 = AXIS2_PLACEMENT_3D ( 'NONE', #16, #112, #125 ) ;
#122 = VERTEX_POINT ( 'NONE', #118 ) ;
#123 = DIRECTION ( 'NONE',  ( -0.0000000000000000000, 0.0000000000000000000, -1.000000000000000000 ) ) ;
#124 = DIRECTION ( 'NONE',  ( -1.000000000000000000, -0.0000000000000000000, -0.0000000000000000000 ) ) ;
#125 = DIRECTION ( 'NONE',  ( 0.0000000000000000000, 0.0000000000000000000, -1.000000000000000000 ) ) ;
#126 =( LENGTH_UNIT ( ) NAMED_UNIT ( * ) SI_UNIT ( .MILLI., .METRE. ) );
#127 = FACE_OUTER_BOUND ( 'NONE', #78, .T. ) ;
#128 = ORIENTED_EDGE ( 'NONE', *, *, #139, .T. ) ;
#129 = MANIFOLD_SOLID_BREP ( 'Ðý×ª1', #133 ) ;
#130 = ORIENTED_EDGE ( 'NONE', *, *, #30, .F. ) ;
#131 = EDGE_CURVE ( 'NONE', #182, #15, #90, .T. ) ;
#132 = CARTESIAN_POINT ( 'NONE',  ( 586.5225616335261500, 192.3421785149739900, -1.500000000000001300 ) ) ;
#133 = CLOSED_SHELL ( 'NONE', ( #38, #73, #94, #101, #96 ) ) ;
#134 = CIRCLE ( 'NONE', #115, 1.500000000000001300 ) ;
#135 = EDGE_LOOP ( 'NONE', ( #110, #42, #46, #143 ) ) ;
#136 = CARTESIAN_POINT ( 'NONE',  ( 583.1383288880456300, 192.3421785149738800, 0.0000000000000000000 ) ) ;
#137 = CARTESIAN_POINT ( 'NONE',  ( 583.1383288880456300, 192.3421785149738800, 0.0000000000000000000 ) ) ;
#138 =( NAMED_UNIT ( * ) PLANE_ANGLE_UNIT ( ) SI_UNIT ( $, .RADIAN. ) );
#139 = EDGE_CURVE ( 'NONE', #106, #179, #134, .T. ) ;
#140 = DIRECTION ( 'NONE',  ( 0.0000000000000000000, 0.0000000000000000000, 1.000000000000000000 ) ) ;
#141 = ORIENTED_EDGE ( 'NONE', *, *, #91, .F. ) ;
#142 = STYLED_ITEM ( 'NONE', ( #88 ), #164 ) ;
#143 = ORIENTED_EDGE ( 'NONE', *, *, #139, .F. ) ;
#144 = ORIENTED_EDGE ( 'NONE', *, *, #31, .T. ) ;
#145 = UNCERTAINTY_MEASURE_WITH_UNIT (LENGTH_MEASURE( 1.000000000000000100E-005 ), #71, 'distance_accuracy_value', 'NONE');
#146 = PRODUCT_DEFINITION_SHAPE ( 'NONE', 'NONE',  #6 ) ;
#147 = EDGE_CURVE ( 'NONE', #32, #15, #79, .T. ) ;
#148 =( GEOMETRIC_REPRESENTATION_CONTEXT ( 3 ) GLOBAL_UNCERTAINTY_ASSIGNED_CONTEXT ( ( #80 ) ) GLOBAL_UNIT_ASSIGNED_CONTEXT ( ( #70, #69, #52 ) ) REPRESENTATION_CONTEXT ( 'NONE', 'WORKASPACE' ) );
#149 = CARTESIAN_POINT ( 'NONE',  ( 586.6619652516819800, 192.3421785149739900, 0.0000000000000000000 ) ) ;
#150 = EDGE_LOOP ( 'NONE', ( #128, #144, #8, #62, #82 ) ) ;
#151 = EDGE_CURVE ( 'NONE', #122, #106, #36, .T. ) ;
#152 = CARTESIAN_POINT ( 'NONE',  ( 588.1419652516821100, 192.3421785149739900, 0.0000000000000000000 ) ) ;
#153 = AXIS2_PLACEMENT_3D ( 'NONE', #152, #65, #109 ) ;
#154 = CARTESIAN_POINT ( 'NONE',  ( 588.1419652516821100, 192.3421785149739900, 1.500000000000001300 ) ) ;
#155 = DIRECTION ( 'NONE',  ( 0.0000000000000000000, 0.0000000000000000000, 1.000000000000000000 ) ) ;
#156 = PRODUCT_DEFINITION_FORMATION_WITH_SPECIFIED_SOURCE ( 'ÈÎºÎ', '', #163, .NOT_KNOWN. ) ;
#157 = CARTESIAN_POINT ( 'NONE',  ( 588.1419652516821100, 192.3421785149739900, -1.500000000000001300 ) ) ;
#158 = VERTEX_POINT ( 'NONE', #26 ) ;
#159 =( NAMED_UNIT ( * ) SI_UNIT ( $, .STERADIAN. ) SOLID_ANGLE_UNIT ( ) );
#160 = DIRECTION ( 'NONE',  ( 0.0000000000000000000, 0.0000000000000000000, 1.000000000000000000 ) ) ;
#161 = AXIS2_PLACEMENT_3D ( 'NONE', #137, #25, #172 ) ;
#162 = EDGE_LOOP ( 'NONE', ( #117, #58, #41, #92, #170 ) ) ;
#163 = PRODUCT ( '100001', '100001', '', ( #120 ) ) ;
#164 = ADVANCED_BREP_SHAPE_REPRESENTATION ( '100001', ( #129, #45 ), #21 ) ;
#165 = AXIS2_PLACEMENT_3D ( 'NONE', #111, #20, #49 ) ;
#166 = DIRECTION ( 'NONE',  ( 0.0000000000000000000, 1.000000000000000000, 0.0000000000000000000 ) ) ;
#167 = DIRECTION ( 'NONE',  ( 0.0000000000000000000, 0.0000000000000000000, 1.000000000000000000 ) ) ;
#168 = DIRECTION ( 'NONE',  ( -1.000000000000000000, -0.0000000000000000000, -0.0000000000000000000 ) ) ;
#169 = FILL_AREA_STYLE ('',( #37 ) ) ;
#170 = ORIENTED_EDGE ( 'NONE', *, *, #131, .F. ) ;
#171 = DIRECTION ( 'NONE',  ( 0.0000000000000000000, 1.224646799147353200E-016, -1.000000000000000000 ) ) ;
#172 = DIRECTION ( 'NONE',  ( 1.000000000000000000, 0.0000000000000000000, 0.0000000000000000000 ) ) ;
#173 = DIRECTION ( 'NONE',  ( 0.0000000000000000000, 1.000000000000000000, 1.224646799147350500E-016 ) ) ;
#174 = AXIS2_PLACEMENT_3D ( 'NONE', #83, #66, #180 ) ;
#175 = MECHANICAL_DESIGN_GEOMETRIC_PRESENTATION_REPRESENTATION (  '', ( #142 ), #108 ) ;
#176 = CYLINDRICAL_SURFACE ( 'NONE', #119, 1.500000000000001300 ) ;
#177 = DIRECTION ( 'NONE',  ( 1.000000000000000000, 0.0000000000000000000, 0.0000000000000000000 ) ) ;
#178 = CIRCLE ( 'NONE', #81, 1.500000000000001300 ) ;
#179 = VERTEX_POINT ( 'NONE', #157 ) ;
#180 = DIRECTION ( 'NONE',  ( 0.0000000000000000000, 0.0000000000000000000, 1.000000000000000000 ) ) ;
#181 = CIRCLE ( 'NONE', #12, 5.223636363636457800 ) ;
#182 = VERTEX_POINT ( 'NONE', #86 ) ;
#183 =( NAMED_UNIT ( * ) SI_UNIT ( $, .STERADIAN. ) SOLID_ANGLE_UNIT ( ) );
#184 = APPLICATION_PROTOCOL_DEFINITION ( 'draft international standard', 'automotive_design', 1998, #23 ) ;
#185 = CARTESIAN_POINT ( 'NONE',  ( 586.6619652516819800, 192.3421785149739900, 0.0000000000000000000 ) ) ;
#186 = ORIENTED_EDGE ( 'NONE', *, *, #57, .T. ) ;
ENDSEC;
END-ISO-10303-21;
